0
SECTION
2
HEADER
9
$INSUNITS
70
1
9
$ACADVER
1
AC1014
9
$HANDSEED
5
FFFF
0
ENDSEC
0
SECTION
2
TABLES
0
TABLE
2
VPORT
5
8
100
AcDbSymbolTable
0
ENDTAB
0
TABLE
2
LTYPE
5
5
100
AcDbSymbolTable
0
LTYPE
5
14
100
AcDbSymbolTableRecord
100
AcDbLinetypeTableRecord
2
BYBLOCK
70
0
0
LTYPE
5
15
100
AcDbSymbolTableRecord
100
AcDbLinetypeTableRecord
2
BYLAYER
70
0
0
ENDTAB
0
TABLE
2
LAYER
5
2
100
AcDbSymbolTable
70
2
0
LAYER
5
50
100
AcDbSymbolTableRecord
100
AcDbLayerTableRecord
2
0
70
0
6
CONTINUOUS
0
ENDTAB
0
TABLE
2
STYLE
5
3
100
AcDbSymbolTable
70
1
0
STYLE
5
11
100
AcDbSymbolTableRecord
100
AcDbTextStyleTableRecord
2
STANDARD
70
0
0
ENDTAB
0
TABLE
2
VIEW
5
6
100
AcDbSymbolTable
70
0
0
ENDTAB
0
TABLE
2
UCS
5
7
100
AcDbSymbolTable
70
0
0
ENDTAB
0
TABLE
2
APPID
5
9
100
AcDbSymbolTable
70
2
0
APPID
5
12
100
AcDbSymbolTableRecord
100
AcDbRegAppTableRecord
2
ACAD
70
0
0
ENDTAB
0
TABLE
2
DIMSTYLE
5
A
100
AcDbSymbolTable
70
1
0
ENDTAB
0
TABLE
2
BLOCK_RECORD
5
1
100
AcDbSymbolTable
70
1
0
BLOCK_RECORD
5
1F
100
AcDbSymbolTableRecord
100
AcDbBlockTableRecord
2
*MODEL_SPACE
0
BLOCK_RECORD
5
1B
100
AcDbSymbolTableRecord
100
AcDbBlockTableRecord
2
*PAPER_SPACE
0
ENDTAB
0
ENDSEC
0
SECTION
2
BLOCKS
0
BLOCK
5
20
100
AcDbEntity
100
AcDbBlockBegin
2
*MODEL_SPACE
0
ENDBLK
5
21
100
AcDbEntity
100
AcDbBlockEnd
0
BLOCK
5
1C
100
AcDbEntity
100
AcDbBlockBegin
2
*PAPER_SPACE
0
ENDBLK
5
1D
100
AcDbEntity
100
AcDbBlockEnd
0
ENDSEC
0
SECTION
2
ENTITIES
0
LWPOLYLINE
5
100
100
AcDbEntity
8
0
100
AcDbPolyline
90
8
70
1
43
0.0
10
37.086854116417882
20
-2.0976237621114677
10
19.836854116417886
20
-2.0976237621114677
42
0.41421356237309509
10
19.461854116417886
20
-2.4726237621114682
10
19.461854116417886
20
-19.722623762111464
42
0.41421356237309509
10
19.836854116417886
20
-20.097623762111464
10
37.086854116417882
20
-20.097623762111464
42
0.41421356237309509
10
37.461854116417889
20
-19.722623762111464
10
37.461854116417889
20
-2.4726237621114682
42
0.41421356237309509
0
LWPOLYLINE
5
101
100
AcDbEntity
8
0
100
AcDbPolyline
90
12
70
1
43
0.0
10
57.936813251507978
20
-0.31251432918291988
10
57.936813251507978
20
-20.687514329182751
10
55.936801085553192
20
-20.68751432918274
10
55.936801085553192
20
-13.220352436087861
42
0.55269235718813248
10
55.506626114330473
20
-12.950066519201384
10
55.495999233963296
20
-12.955184632131264
42
-0.24056448385489715
10
48.162545562804198
20
-12.784123439315385
10
48.129449240016356
20
-12.766236633583294
42
0.5680148199626196
10
47.686813251507964
20
-13.030158922869806
10
47.686813251507964
20
-20.68751432918274
10
45.686813251507964
20
-20.68751432918274
10
45.686813251508816
20
-0.75178891112708046
42
-0.46526157366966858
0
LWPOLYLINE
5
102
100
AcDbEntity
8
0
100
AcDbPolyline
90
4
70
1
43
0.0
10
22.336854116417886
20
-7.9999998498150671
10
22.336854116417886
20
-5.9999998798520533
10
23.076854116417884
20
-5.9999998798520524
10
23.076854116417884
20
-7.9999998498150671
0
LWPOLYLINE
5
103
100
AcDbEntity
8
0
100
AcDbPolyline
90
4
70
1
43
0.0
10
22.336854116417886
20
-15.999999729667126
10
22.336854116417886
20
-13.999999759704112
10
23.076854116417884
20
-13.999999759704112
10
23.076854116417884
20
-15.999999729667126
0
LWPOLYLINE
5
104
100
AcDbEntity
8
0
100
AcDbPolyline
90
4
70
1
43
0.0
10
33.846854116417887
20
-7.9999998498150671
10
33.846854116417887
20
-5.9999998798520533
10
34.586854116417882
20
-5.9999998798520524
10
34.586854116417882
20
-7.9999998498150653
0
LWPOLYLINE
5
105
100
AcDbEntity
8
0
100
AcDbPolyline
90
4
70
1
43
0.0
10
33.846854116417887
20
-15.999999729667126
10
33.846854116417887
20
-13.999999759704112
10
34.586854116417882
20
-13.999999759704108
10
34.586854116417882
20
-15.999999729667122
0
LINE
5
106
100
AcDbEntity
8
0
100
AcDbLine
10
46.051813251507966
20
-18.687514329182729
30
0
11
46.426813251507966
21
-18.687514329182545
31
0
0
LWPOLYLINE
5
107
100
AcDbEntity
8
0
100
AcDbPolyline
90
4
70
1
43
0.0
10
57.571813251508161
20
-18.687514329274588
10
57.196813251841029
20
-18.687514329182914
10
57.196813251506967
20
-16.749999714648627
10
57.571813251508097
20
-16.749999714648627
0
LINE
5
108
100
AcDbEntity
8
0
100
AcDbLine
10
46.426813251507966
20
-16.749999615621103
30
0
11
46.051813251507966
21
-16.749999617045098
31
0
0
LINE
5
109
100
AcDbEntity
8
0
100
AcDbLine
10
46.051813251507966
20
-19.749999699630134
30
0
11
46.051813251507966
21
-16.749999617045098
31
0
0
LINE
5
110
100
AcDbEntity
8
0
100
AcDbLine
10
46.426813251507966
20
-18.687514329182545
30
0
11
46.426813251507966
21
-16.749999615621103
31
0
0
LWPOLYLINE
5
111
100
AcDbEntity
8
0
100
AcDbPolyline
90
4
70
1
43
0.0
10
46.426813251507966
20
-2.3754625665652598
10
46.426813251507966
20
-4.3754626156211041
10
46.061813251508219
20
-4.3754626156211041
10
46.061813251508219
20
-2.3754625665652696
0
LWPOLYLINE
5
112
100
AcDbEntity
8
0
100
AcDbPolyline
90
4
70
1
43
0.0
10
57.571813251508161
20
-4.3754626156211032
10
57.571813251508097
20
-2.3754625665652722
10
57.196813251507955
20
-2.3754625665652718
10
57.196813251507997
20
-4.3754626156211032
0
CIRCLE
5
113
100
AcDbEntity
8
0
100
AcDbCircle
10
28.364999130734358
20
-30.000000210270755
30
0
40
6
0
LINE
5
114
100
AcDbEntity
8
0
100
AcDbLine
10
51.811813251507978
20
-4.7499999249075344
30
0
11
51.811813251507978
21
-6.7499998948705482
31
0
0
LWPOLYLINE
5
115
100
AcDbEntity
8
0
100
AcDbPolyline
90
4
70
1
43
0.0
10
17.824938542287018
20
-36.190524935633391
10
17.824938542287022
20
-37.190524935633391
42
-0.12701665379258309
10
20.824938542287018
20
-37.190524935633391
10
20.824938542287018
20
-36.190524935633391
0
LWPOLYLINE
5
116
100
AcDbEntity
8
0
100
AcDbPolyline
90
4
70
1
43
0.0
10
20.999998978742472
20
-31.000000105129448
10
17.999999023797951
20
-31.000000105129448
10
17.999999023797951
20
-32.000000105129445
10
20.999998978742472
20
-32.000000105129445
0
LWPOLYLINE
5
117
100
AcDbEntity
8
0
100
AcDbPolyline
90
4
70
1
43
0.0
10
17.99999893368696
20
-27.19052467450237
10
17.99999893368696
20
-29.19052467450237
42
-0.12701665379258331
10
20.999998933686964
20
-29.19052468613565
10
20.999998933686964
20
-27.19052467450237
0
CIRCLE
5
118
100
AcDbEntity
8
0
100
AcDbCircle
10
21.74281825712168
20
-41.648327730146043
30
0
40
3.9999999999999996
0
LINE
5
119
100
AcDbEntity
8
0
100
AcDbLine
10
64.527300151271021
20
-32.491789487915717
30
0
11
59.527300151271042
21
-32.491789487915717
31
0
0
LINE
5
120
100
AcDbEntity
8
0
100
AcDbLine
10
57.527300151271035
20
-32.501789487915715
30
0
11
57.527300151271035
21
-36.189273027180143
31
0
0
LINE
5
121
100
AcDbEntity
8
0
100
AcDbLine
10
57.752769250424066
20
-36.533170555074562
30
0
11
62.027300151271042
21
-38.391789487915716
31
0
0
LINE
5
122
100
AcDbEntity
8
0
100
AcDbLine
10
62.027300151271042
20
-38.391789487915716
30
0
11
66.30183105211799
21
-36.533170555074555
31
0
0
LINE
5
123
100
AcDbEntity
8
0
100
AcDbLine
10
66.527300151271035
20
-36.189273027180128
30
0
11
66.527300151271035
21
-32.501789487915715
31
0
0
LINE
5
124
100
AcDbEntity
8
0
100
AcDbLine
10
59.527300151271042
20
-32.491789487915717
30
0
11
59.527300151271042
21
-31.728431688677961
31
0
0
LINE
5
125
100
AcDbEntity
8
0
100
AcDbLine
10
64.527300151271021
20
-32.491789487915717
30
0
11
64.527300151271035
21
-31.706800152802561
31
0
0
LINE
5
126
100
AcDbEntity
8
0
100
AcDbLine
10
66.527300151271035
20
-32.501789487915715
30
0
11
66.527300151271035
21
-31.751789487915715
31
0
0
LINE
5
127
100
AcDbEntity
8
0
100
AcDbLine
10
57.527300151271035
20
-32.501789487915715
30
0
11
57.527300151271035
21
-31.751789487915715
31
0
0
LINE
5
128
100
AcDbEntity
8
0
100
AcDbLine
10
57.527300151271035
20
-31.751789487915715
30
0
11
59.527300151271042
21
-31.751789487915715
31
0
0
LINE
5
129
100
AcDbEntity
8
0
100
AcDbLine
10
64.527300151271035
20
-31.751789487915715
30
0
11
66.527300151271035
21
-31.751789487915715
31
0
0
LINE
5
130
100
AcDbEntity
8
0
100
AcDbLine
10
55.324999038816429
20
-31.924999954944521
30
0
11
55.324999038816429
21
-34.624999954944514
31
0
0
LINE
5
131
100
AcDbEntity
8
0
100
AcDbLine
10
55.324999038816429
20
-31.924999954944521
30
0
11
55.324999038816429
21
-29.224999954944536
31
0
0
ARC
5
132
100
AcDbEntity
8
0
100
AcDbCircle
10
55.324999038816429
20
-31.924999954944521
30
0
40
4.6999999999999895
100
AcDbArc
50
90
51
270
0
ARC
5
133
100
AcDbEntity
8
0
100
AcDbCircle
10
55.324999038816429
20
-31.924999954944521
30
0
40
4.1300590287221777
100
AcDbArc
50
149.29412488451356
51
209.30039001680638
0
ARC
5
134
100
AcDbEntity
8
0
100
AcDbCircle
10
55.324999038816429
20
-31.924999954944521
30
0
40
3.8700590287222258
100
AcDbArc
50
149.44350126258431
51
209.38107024921689
0
ARC
5
135
100
AcDbEntity
8
0
100
AcDbCircle
10
51.836735274178103
20
-33.882553506893643
30
0
40
0.13005902866752284
100
AcDbArc
50
-150.69960998327457
51
26.898952775224128
0
ARC
5
136
100
AcDbEntity
8
0
100
AcDbCircle
10
51.885922592146528
20
-29.8825487947197
30
0
40
0.13020233779641258
100
AcDbArc
50
-35.150302950268191
51
149.29412488451709
0
CIRCLE
5
137
100
AcDbEntity
8
0
100
AcDbCircle
10
62.054601098522205
20
-34.419979907250351
30
0
40
0.12999999999999998
0
LINE
5
138
100
AcDbEntity
8
0
100
AcDbLine
10
28.739999122434675
20
-35.988269994292239
30
0
11
28.739999122434675
21
-36.000000150184924
31
0
0
LWPOLYLINE
5
139
100
AcDbEntity
8
0
100
AcDbPolyline
90
4
70
1
43
0.0
10
27.989999098890394
20
-27.500000244062484
10
27.249999098890395
20
-27.500000244939876
10
27.249999098890395
20
-25.500000277842119
10
27.989999098890394
20
-25.500000277842119
0
LWPOLYLINE
5
140
100
AcDbEntity
8
0
100
AcDbPolyline
90
4
70
1
43
0.0
10
29.479999089828848
20
-27.500000244939876
10
28.739999122434675
20
-27.500000244939876
10
28.739999120063342
20
-25.500000277842119
10
29.479999089828848
20
-25.500000277842119
0
LWPOLYLINE
5
141
100
AcDbEntity
8
0
100
AcDbPolyline
90
4
70
1
43
0.0
10
27.989999098890394
20
-34.500000277842119
10
27.989999098890394
20
-32.500000277842119
10
27.249999098890395
20
-32.500000277842119
10
27.249999098890395
20
-34.500000277842119
0
LWPOLYLINE
5
142
100
AcDbEntity
8
0
100
AcDbPolyline
90
4
70
1
43
0.0
10
28.73999913073434
20
-34.500000277842119
10
28.739999128363007
20
-32.500000277842119
10
29.479999089828848
20
-32.500000277842119
10
29.479999089828848
20
-34.500000277842119
0
LWPOLYLINE
5
143
100
AcDbEntity
8
0
100
AcDbPolyline
90
8
70
1
43
0.0
10
65.046497015920565
20
-39.4505139150735
10
60.046497015920558
20
-39.4505139150735
10
60.046497015920558
20
-44.450513915073493
10
61.546497015920558
20
-44.450513915073493
10
61.546497015920558
20
-45.190513915073495
10
63.546497015920565
20
-45.190513915073495
10
63.546497015920565
20
-44.450513915073493
10
65.046497015920565
20
-44.450513915073493
0
LWPOLYLINE
5
144
100
AcDbEntity
8
0
100
AcDbPolyline
90
8
70
1
43
0.0
10
75.499998858594509
20
0.37500031538832318
10
72.374998858594495
20
0.37500031538832318
10
71.999998858594509
20
0.37500031538832318
10
71.999998858594509
20
3.153883243806011e-07
10
71.999998858594509
20
-31.249999684611684
42
0.41421356237309509
10
72.374998858594495
20
-31.62499968461168
10
75.124998858594509
20
-31.62499968461168
42
0.41421356237309509
10
75.499998858594509
20
-31.249999684611684
0
CIRCLE
5
145
100
AcDbEntity
8
0
100
AcDbCircle
10
28.364999130734358
20
-30.000000210270755
30
0
40
0.12499999999999967
0
CIRCLE
5
146
100
AcDbEntity
8
0
100
AcDbCircle
10
21.74281825712168
20
-41.648327730146043
30
0
40
0.12499999999999839
0
CIRCLE
5
147
100
AcDbEntity
8
0
100
AcDbCircle
10
51.996755209649919
20
-5.6896068437340857
30
0
40
0.12499999999999822
0
ARC
5
148
100
AcDbEntity
8
0
100
AcDbCircle
10
66.152300151271021
20
-36.189273027180128
30
0
40
0.37500000000000322
100
AcDbArc
50
-66.500000000000085
51
0
0
ARC
5
149
100
AcDbEntity
8
0
100
AcDbCircle
10
57.902300151271028
20
-36.189273027180143
30
0
40
0.37499999999999462
100
AcDbArc
50
180
51
246.50000000000065
0
LINE
5
150
100
AcDbEntity
8
0
100
AcDbLine
10
55.324999038816429
20
-36.624999954944514
30
0
11
56.064999038816431
21
-36.624999954944514
31
0
0
LINE
5
151
100
AcDbEntity
8
0
100
AcDbLine
10
56.064999038816431
20
-36.624999954944514
30
0
11
56.064999038816431
21
-34.624999954944514
31
0
0
LINE
5
152
100
AcDbEntity
8
0
100
AcDbLine
10
56.064999038816431
20
-34.624999954944514
30
0
11
55.324999038816429
21
-34.624999954944514
31
0
0
LINE
5
153
100
AcDbEntity
8
0
100
AcDbLine
10
55.324999038816429
20
-27.224999954944533
30
0
11
56.064999038816431
21
-27.22499995494454
31
0
0
LINE
5
154
100
AcDbEntity
8
0
100
AcDbLine
10
56.064999038816431
20
-27.22499995494454
30
0
11
56.064999038816431
21
-29.224999954944536
31
0
0
LINE
5
155
100
AcDbEntity
8
0
100
AcDbLine
10
56.064999038816431
20
-29.224999954944536
30
0
11
55.324999038816429
21
-29.224999954944536
31
0
0
LWPOLYLINE
5
156
100
AcDbEntity
8
0
100
AcDbPolyline
90
4
70
1
43
0.0
10
73.384998858594486
20
-11.424999684611679
10
74.124998858594495
20
-11.424999684611675
10
74.124998858594495
20
-13.424999684611677
10
73.384998858594486
20
-13.424999684611679
0
LWPOLYLINE
5
157
100
AcDbEntity
8
0
100
AcDbPolyline
90
4
70
1
43
0.0
10
74.124998858594495
20
-20.824999684611676
10
73.384998858594486
20
-20.824999684611679
10
73.384998858594486
20
-18.824999684611679
10
74.124998858594495
20
-18.824999684611676
0
LWPOLYLINE
5
158
100
AcDbEntity
8
0
100
AcDbPolyline
90
3
70
1
43
0.0
10
19.830785609454551
20
-43.960065421635932
42
-0.17998184009824553
10
18.784778365571874
20
-42.148327730146043
10
20.876792853337239
20
-42.148327730146043
0
LWPOLYLINE
5
159
100
AcDbEntity
8
0
100
AcDbPolyline
90
3
70
1
43
0.0
10
22.78882550100435
20
-44.460065421635946
42
-0.17998184009824461
10
20.696811013239
20
-44.460065421635939
10
21.742818257121673
20
-42.64832773014605
0
LWPOLYLINE
5
160
100
AcDbEntity
8
0
100
AcDbPolyline
90
3
70
1
43
0.0
10
24.700858148671486
20
-42.148327730146043
42
-0.1799818400982453
10
23.654850904788809
20
-43.960065421635932
10
22.608843660906128
20
-42.148327730146043
0
LWPOLYLINE
5
161
100
AcDbEntity
8
0
100
AcDbPolyline
90
3
70
1
43
0.0
10
23.654850904788809
20
-39.336590038656141
10
22.608843660906118
20
-41.148327730146036
10
24.70085814867149
20
-41.148327730146036
42
0.17998184009824547
0
LWPOLYLINE
5
162
100
AcDbEntity
8
0
100
AcDbPolyline
90
3
70
1
43
0.0
10
20.876792853337228
20
-41.148327730146036
10
19.830785609454555
20
-39.336590038656141
42
0.17998184009824575
10
18.784778365571874
20
-41.148327730146036
0
LWPOLYLINE
5
163
100
AcDbEntity
8
0
100
AcDbPolyline
90
3
70
1
43
0.0
10
21.742818257121684
20
-40.648327730146036
10
20.696811013239
20
-38.836590038656134
42
-0.17998184009824608
10
22.788825501004371
20
-38.836590038656141
0
LINE
5
164
100
AcDbEntity
8
0
100
AcDbLine
10
22.031493391716499
20
-41.148327730146036
30
0
11
21.454143122526865
21
-41.148327730146036
31
0
0
ARC
5
165
100
AcDbEntity
8
0
100
AcDbCircle
10
51.996755209649919
20
-5.6896068437340857
30
0
40
8.0123288406483191
100
AcDbArc
50
42.152199891182256
51
141.95519602647073
0
LWPOLYLINE
5
166
100
AcDbEntity
8
0
100
AcDbPolyline
90
21
70
1
43
0.0
10
40.074272248290733
20
-32.59797963773773
10
40.074272248290733
20
-45.06364203973429
10
38.074272248290733
20
-45.063642039748771
10
38.07427224829074
20
-45.803642039748631
10
36.074272248290733
20
-45.803642039748631
10
36.074272248290733
20
-45.063642039748629
10
30.074272248290765
20
-45.063642039748729
10
30.074272248290729
20
-45.803642039748723
10
28.074272248290733
20
-45.803642039748723
10
28.074272248290761
20
-45.063642039748714
10
26.074272248290733
20
-45.063642039748707
10
27.249842752875686
20
-43.445608050998814
10
26.651170177038189
20
-43.010646964302403
10
27.826740681623154
20
-41.392612975552517
10
28.425413257460484
20
-41.827574062249127
10
35.699255754579966
20
-31.815988756859056
10
35.100583178742397
20
-31.381027670162776
10
36.276153683327372
20
-29.762993681412908
10
36.874826259164948
20
-30.197954768109128
10
38.050396763750093
20
-28.579920779359366
10
38.013198509753096
20
-28.552894665863001
42
-0.24007875908011625
0
LWPOLYLINE
5
167
100
AcDbEntity
8
0
100
AcDbPolyline
90
6
70
1
43
0.0
10
38.074272248290733
20
-42.677843462433977
10
38.074272248290733
20
-33.10301031858711
42
0.72654252800535968
10
37.39589087540012
20
-32.882590848977422
10
30.439367397840069
20
-42.45742399282431
42
0.6128007881399351
10
30.742748770730667
20
-43.052843462433984
10
37.699272248290725
20
-43.052843462433984
42
0.41421356237309509
0
LWPOLYLINE
5
168
100
AcDbEntity
8
0
100
AcDbPolyline
90
20
70
1
43
0.0
10
56.326727516342785
20
-45.795397744794478
10
56.326727516342785
20
-45.055397744794483
10
58.326727516342778
20
-45.055397744794476
10
57.151157011757839
20
-43.437363756044583
10
57.749829584892069
20
-43.002402665627464
10
56.574259083010325
20
-41.384368680598293
10
55.975586507172885
20
-41.819329767294739
10
48.701744010053538
20
-31.807744461904718
10
49.300119802733207
20
-31.372999000794046
10
48.124846081306075
20
-29.75474938645841
10
47.526173505468599
20
-30.189710473154818
10
46.35090895543712
20
-28.572097594720805
42
0.23766051841389849
10
44.326727516342778
20
-32.590119980493299
10
44.326727516342778
20
-45.055397744794483
10
46.326727516342785
20
-45.055397744794483
10
46.326727516342785
20
-45.805397744794476
10
48.326727516342778
20
-45.805397744794483
10
48.326727516342778
20
-45.065397744794481
10
54.326727516342778
20
-45.065397744794481
10
54.326727516342778
20
-45.795397744794478
0
LWPOLYLINE
5
169
100
AcDbEntity
8
0
100
AcDbPolyline
90
6
70
1
43
0.0
10
46.326727516342771
20
-33.095549258989301
42
-0.72654252800536423
10
47.005108889233391
20
-32.875129789379621
10
53.968908938658643
20
-42.459978275184795
42
-0.6128007881399351
10
53.665527565768045
20
-43.055397744794483
10
46.701727516342778
20
-43.055397744794469
42
-0.41421356237309509
10
46.326727516342785
20
-42.680397744794476
0
LWPOLYLINE
5
170
100
AcDbEntity
8
0
100
AcDbPolyline
90
2
70
1
43
0.0
10
30.229999089828848
20
-34.095335990469678
10
30.229999089828848
20
-25.904664430071833
42
-0.64341489497535576
0
LWPOLYLINE
5
171
100
AcDbEntity
8
0
100
AcDbPolyline
90
2
70
1
43
0.0
10
26.499999098890395
20
-34.095335957316138
10
26.499999098890395
20
-25.904664463201659
42
0.64198732113244494
0
LINE
5
172
100
AcDbEntity
8
0
100
AcDbLine
10
75.917192149298074
20
-16.124999684611677
30
0
11
77.026603445005733
21
-16.124999684611662
31
0
0
LWPOLYLINE
5
173
100
AcDbEntity
8
0
100
AcDbPolyline
90
4
70
1
43
0.0
10
74.749998858594509
20
-0.36499968461167676
10
72.749998858594523
20
-0.36499968461167676
10
72.749998858594509
20
0.010000315388323452
10
74.749998858594509
20
0.010000315388323452
0
LINE
5
174
100
AcDbEntity
8
0
100
AcDbLine
10
59.527300151271021
20
-31.251789487915723
30
0
11
57.527300151271014
21
-31.251789487915723
31
0
0
LINE
5
175
100
AcDbEntity
8
0
100
AcDbLine
10
66.527300151271021
20
-30.501789487915723
30
0
11
66.527300151271021
21
-26.81430594865131
31
0
0
LINE
5
176
100
AcDbEntity
8
0
100
AcDbLine
10
59.527300151271021
20
-30.511789487915724
30
0
11
59.527300151271021
21
-31.29677882302888
31
0
0
LINE
5
177
100
AcDbEntity
8
0
100
AcDbLine
10
59.527300151271021
20
-30.511789487915724
30
0
11
64.527300151271021
21
-30.511789487915724
31
0
0
LINE
5
178
100
AcDbEntity
8
0
100
AcDbLine
10
66.527300151271021
20
-31.251789487915723
30
0
11
64.527300151271021
21
-31.251789487915723
31
0
0
CIRCLE
5
179
100
AcDbEntity
8
0
100
AcDbCircle
10
61.999999204019851
20
-28.583599068581091
30
0
40
0.12999999999999998
0
LINE
5
180
100
AcDbEntity
8
0
100
AcDbLine
10
57.527300151271014
20
-26.814305948651317
30
0
11
57.527300151271014
21
-30.501789487915723
31
0
0
LINE
5
181
100
AcDbEntity
8
0
100
AcDbLine
10
62.027300151271014
20
-24.611789487915726
30
0
11
57.752769250424045
21
-26.470408420756893
31
0
0
LINE
5
182
100
AcDbEntity
8
0
100
AcDbLine
10
66.30183105211799
20
-26.470408420756893
30
0
11
62.027300151271014
21
-24.611789487915726
31
0
0
LINE
5
183
100
AcDbEntity
8
0
100
AcDbLine
10
66.527300151271021
20
-30.501789487915723
30
0
11
66.527300151271021
21
-31.251789487915723
31
0
0
ARC
5
184
100
AcDbEntity
8
0
100
AcDbCircle
10
57.902300151271021
20
-26.814305948651317
30
0
40
0.37500000000000766
100
AcDbArc
50
113.50000000000112
51
180
0
LINE
5
185
100
AcDbEntity
8
0
100
AcDbLine
10
64.527300151271021
20
-30.511789487915724
30
0
11
64.527300151271021
21
-31.27514728715348
31
0
0
ARC
5
186
100
AcDbEntity
8
0
100
AcDbCircle
10
66.152300151271021
20
-26.81430594865131
30
0
40
0.37499999999999462
100
AcDbArc
50
0
51
66.499999999999446
0
LINE
5
187
100
AcDbEntity
8
0
100
AcDbLine
10
57.527300151271014
20
-30.501789487915723
30
0
11
57.527300151271014
21
-31.251789487915723
31
0
0
LWPOLYLINE
5
188
100
AcDbEntity
8
0
100
AcDbPolyline
90
8
70
1
43
0.0
10
32.596854116417887
20
-3.999999879852052
10
24.326854116417884
20
-3.9999998798520542
42
0.41421356237309553
10
23.576854116417884
20
-4.7499998798520533
10
23.576854116417884
20
-17.249999729667124
42
0.41421356237309509
10
24.326854116417888
20
-17.999999729667124
10
32.596854116417887
20
-17.999999729667124
42
0.41421356237309176
10
33.346854116417887
20
-17.24999972966712
10
33.346854116417887
20
-4.7499998798520515
42
0.41421356237309587
0
ENDSEC
0
SECTION
2
OBJECTS
0
DICTIONARY
5
C
100
AcDbDictionary
3
ACAD_GROUP
350
D
3
ACAD_MLINESTYLE
350
17
0
DICTIONARY
5
D
100
AcDbDictionary
0
DICTIONARY
5
1A
330
C
100
AcDbDictionary
0
DICTIONARY
5
17
100
AcDbDictionary
0
ENDSEC
0
EOF
