0
SECTION
2
HEADER
9
$INSUNITS
70
1
9
$ACADVER
1
AC1014
9
$HANDSEED
5
FFFF
0
ENDSEC
0
SECTION
2
TABLES
0
TABLE
2
VPORT
5
8
100
AcDbSymbolTable
0
ENDTAB
0
TABLE
2
LTYPE
5
5
100
AcDbSymbolTable
0
LTYPE
5
14
100
AcDbSymbolTableRecord
100
AcDbLinetypeTableRecord
2
BYBLOCK
70
0
0
LTYPE
5
15
100
AcDbSymbolTableRecord
100
AcDbLinetypeTableRecord
2
BYLAYER
70
0
0
ENDTAB
0
TABLE
2
LAYER
5
2
100
AcDbSymbolTable
70
2
0
LAYER
5
50
100
AcDbSymbolTableRecord
100
AcDbLayerTableRecord
2
0
70
0
6
CONTINUOUS
0
ENDTAB
0
TABLE
2
STYLE
5
3
100
AcDbSymbolTable
70
1
0
STYLE
5
11
100
AcDbSymbolTableRecord
100
AcDbTextStyleTableRecord
2
STANDARD
70
0
0
ENDTAB
0
TABLE
2
VIEW
5
6
100
AcDbSymbolTable
70
0
0
ENDTAB
0
TABLE
2
UCS
5
7
100
AcDbSymbolTable
70
0
0
ENDTAB
0
TABLE
2
APPID
5
9
100
AcDbSymbolTable
70
2
0
APPID
5
12
100
AcDbSymbolTableRecord
100
AcDbRegAppTableRecord
2
ACAD
70
0
0
ENDTAB
0
TABLE
2
DIMSTYLE
5
A
100
AcDbSymbolTable
70
1
0
ENDTAB
0
TABLE
2
BLOCK_RECORD
5
1
100
AcDbSymbolTable
70
1
0
BLOCK_RECORD
5
1F
100
AcDbSymbolTableRecord
100
AcDbBlockTableRecord
2
*MODEL_SPACE
0
BLOCK_RECORD
5
1B
100
AcDbSymbolTableRecord
100
AcDbBlockTableRecord
2
*PAPER_SPACE
0
ENDTAB
0
ENDSEC
0
SECTION
2
BLOCKS
0
BLOCK
5
20
100
AcDbEntity
100
AcDbBlockBegin
2
*MODEL_SPACE
0
ENDBLK
5
21
100
AcDbEntity
100
AcDbBlockEnd
0
BLOCK
5
1C
100
AcDbEntity
100
AcDbBlockBegin
2
*PAPER_SPACE
0
ENDBLK
5
1D
100
AcDbEntity
100
AcDbBlockEnd
0
ENDSEC
0
SECTION
2
ENTITIES
0
LINE
5
100
100
AcDbEntity
8
0
100
AcDbLine
10
98.642977097096903
20
63.389456491521933
30
0
11
98.642977097096903
21
31.389456491521944
31
0
0
LINE
5
101
100
AcDbEntity
8
0
100
AcDbLine
10
84.642977097096903
20
63.389456491521933
30
0
11
84.642977097096903
21
31.389456491521944
31
0
0
LINE
5
102
100
AcDbEntity
8
0
100
AcDbLine
10
70.642977097096903
20
63.389456491521933
30
0
11
70.642977097096903
21
31.389456491521944
31
0
0
LINE
5
103
100
AcDbEntity
8
0
100
AcDbLine
10
98.642977097096903
20
63.389456491521933
30
0
11
70.642977097096903
21
63.389456491521933
31
0
0
LINE
5
104
100
AcDbEntity
8
0
100
AcDbLine
10
98.642977097096903
20
55.389456491521941
30
0
11
70.642977097096903
21
55.389456491521941
31
0
0
LINE
5
105
100
AcDbEntity
8
0
100
AcDbLine
10
98.642977097096903
20
47.389456491521941
30
0
11
70.642977097096903
21
47.389456491521941
31
0
0
LINE
5
106
100
AcDbEntity
8
0
100
AcDbLine
10
98.642977097096903
20
39.389456491521948
30
0
11
70.642977097096903
21
39.389456491521948
31
0
0
LINE
5
107
100
AcDbEntity
8
0
100
AcDbLine
10
98.642977097096903
20
31.389456491521944
30
0
11
98.642977097096903
21
17.389456491521944
31
0
0
LINE
5
108
100
AcDbEntity
8
0
100
AcDbLine
10
90.642977097096903
20
31.389456491521944
30
0
11
90.642977097096903
21
17.389456491521944
31
0
0
LINE
5
109
100
AcDbEntity
8
0
100
AcDbLine
10
82.642977097096903
20
31.389456491521944
30
0
11
82.642977097096903
21
17.389456491521944
31
0
0
LINE
5
110
100
AcDbEntity
8
0
100
AcDbLine
10
74.642977097096903
20
31.389456491521944
30
0
11
74.642977097096903
21
17.389456491521944
31
0
0
LINE
5
111
100
AcDbEntity
8
0
100
AcDbLine
10
66.642977097096903
20
31.389456491521944
30
0
11
66.642977097096903
21
17.389456491521944
31
0
0
LINE
5
112
100
AcDbEntity
8
0
100
AcDbLine
10
98.642977097096903
20
31.389456491521944
30
0
11
66.642977097096903
21
31.389456491521944
31
0
0
LINE
5
113
100
AcDbEntity
8
0
100
AcDbLine
10
98.642977097096903
20
17.389456491521944
30
0
11
66.642977097096903
21
17.389456491521944
31
0
0
LINE
5
114
100
AcDbEntity
8
0
100
AcDbLine
10
95.642977097096889
20
63.389456491521933
30
0
11
95.140977229683756
21
63.389456491521933
31
0
0
LINE
5
115
100
AcDbEntity
8
0
100
AcDbLine
10
95.642977097096889
20
63.389456491521933
30
0
11
87.642977097096903
21
55.389456491521941
31
0
0
LINE
5
116
100
AcDbEntity
8
0
100
AcDbLine
10
81.642977097096889
20
63.389456491521933
30
0
11
73.642977097096903
21
55.389456491521941
31
0
0
LINE
5
117
100
AcDbEntity
8
0
100
AcDbLine
10
95.642977097096889
20
55.389456491521941
30
0
11
87.642977097096903
21
47.389456491521941
31
0
0
LINE
5
118
100
AcDbEntity
8
0
100
AcDbLine
10
81.642977097096889
20
55.389456491521941
30
0
11
73.642977097096903
21
47.389456491521941
31
0
0
LINE
5
119
100
AcDbEntity
8
0
100
AcDbLine
10
95.642977097096889
20
47.389456491521941
30
0
11
87.642977097096903
21
39.389456491521948
31
0
0
LINE
5
120
100
AcDbEntity
8
0
100
AcDbLine
10
81.642977097096889
20
47.389456491521941
30
0
11
73.642977097096903
21
39.389456491521948
31
0
0
LINE
5
121
100
AcDbEntity
8
0
100
AcDbLine
10
95.642977097096889
20
39.389456491521948
30
0
11
87.642977097096903
21
31.389456491521951
31
0
0
LINE
5
122
100
AcDbEntity
8
0
100
AcDbLine
10
81.642977097096889
20
39.389456491521948
30
0
11
73.642977097096903
21
31.389456491521951
31
0
0
LINE
5
123
100
AcDbEntity
8
0
100
AcDbLine
10
92.642977097096889
20
39.389456491521948
30
0
11
92.642977097096889
21
36.389456491521948
31
0
0
LINE
5
124
100
AcDbEntity
8
0
100
AcDbLine
10
78.642977097096889
20
39.389456491521948
30
0
11
78.642977097096889
21
36.389456491521948
31
0
0
LINE
5
125
100
AcDbEntity
8
0
100
AcDbLine
10
90.642977097096903
20
31.389456491521951
30
0
11
90.642977097096903
21
34.389456491521955
31
0
0
LINE
5
126
100
AcDbEntity
8
0
100
AcDbLine
10
76.642977097096903
20
31.389456491521951
30
0
11
76.642977097096903
21
34.389456491521955
31
0
0
LINE
5
127
100
AcDbEntity
8
0
100
AcDbLine
10
66.642977097096903
20
20.389456491521944
30
0
11
74.642977097096903
21
28.389456491521944
31
0
0
LINE
5
128
100
AcDbEntity
8
0
100
AcDbLine
10
74.642977097096903
20
20.389456491521944
30
0
11
82.642977097096903
21
28.389456491521944
31
0
0
LINE
5
129
100
AcDbEntity
8
0
100
AcDbLine
10
82.642977097096903
20
20.389456491521944
30
0
11
90.642977097096903
21
28.389456491521944
31
0
0
LINE
5
130
100
AcDbEntity
8
0
100
AcDbLine
10
90.642977097096903
20
20.389456491521944
30
0
11
98.642977097096903
21
28.389456491521944
31
0
0
LINE
5
131
100
AcDbEntity
8
0
100
AcDbLine
10
66.642977097096903
20
23.389456491521941
30
0
11
69.642977097096917
21
23.389456491521941
31
0
0
LINE
5
132
100
AcDbEntity
8
0
100
AcDbLine
10
74.642977097096903
20
25.389456491521941
30
0
11
71.642977097096903
21
25.389456491521941
31
0
0
LINE
5
133
100
AcDbEntity
8
0
100
AcDbLine
10
74.642977097096903
20
23.389456491521941
30
0
11
77.642977097096903
21
23.389456491521941
31
0
0
LINE
5
134
100
AcDbEntity
8
0
100
AcDbLine
10
82.642977097096903
20
25.389456491521941
30
0
11
79.642977097096903
21
25.389456491521941
31
0
0
LINE
5
135
100
AcDbEntity
8
0
100
AcDbLine
10
82.642977097096903
20
23.389456491521941
30
0
11
85.642977097096903
21
23.389456491521941
31
0
0
LINE
5
136
100
AcDbEntity
8
0
100
AcDbLine
10
90.642977097096903
20
25.389456491521941
30
0
11
87.642977097096903
21
25.389456491521941
31
0
0
LINE
5
137
100
AcDbEntity
8
0
100
AcDbLine
10
90.642977097096903
20
23.389456491521941
30
0
11
93.642977097096903
21
23.389456491521941
31
0
0
LINE
5
138
100
AcDbEntity
8
0
100
AcDbLine
10
98.642977097096903
20
25.389456491521941
30
0
11
95.642977097096889
21
25.389456491521941
31
0
0
LINE
5
139
100
AcDbEntity
8
0
100
AcDbLine
10
94.142977097096889
20
63.389456491521933
30
0
11
94.142977097096889
21
61.889456491521933
31
0
0
LINE
5
140
100
AcDbEntity
8
0
100
AcDbLine
10
89.142977097096903
20
55.389456491521941
30
0
11
89.142977097096903
21
56.889456491521941
31
0
0
LINE
5
141
100
AcDbEntity
8
0
100
AcDbLine
10
80.142977097096889
20
63.389456491521933
30
0
11
80.142977097096889
21
61.889456491521933
31
0
0
LINE
5
142
100
AcDbEntity
8
0
100
AcDbLine
10
75.142977097096903
20
55.389456491521941
30
0
11
75.142977097096903
21
56.889456491521941
31
0
0
LINE
5
143
100
AcDbEntity
8
0
100
AcDbLine
10
94.142977097096889
20
55.389456491521941
30
0
11
94.142977097096889
21
53.889456491521941
31
0
0
LINE
5
144
100
AcDbEntity
8
0
100
AcDbLine
10
89.142977097096903
20
47.389456491521941
30
0
11
89.142977097096903
21
48.889456491521941
31
0
0
LINE
5
145
100
AcDbEntity
8
0
100
AcDbLine
10
80.142977097096889
20
55.389456491521941
30
0
11
80.142977097096889
21
53.889456491521941
31
0
0
LINE
5
146
100
AcDbEntity
8
0
100
AcDbLine
10
75.142977097096903
20
47.389456491521941
30
0
11
75.142977097096903
21
48.889456491521941
31
0
0
ENDSEC
0
SECTION
2
OBJECTS
0
DICTIONARY
5
C
100
AcDbDictionary
3
ACAD_GROUP
350
D
3
ACAD_MLINESTYLE
350
17
0
DICTIONARY
5
D
100
AcDbDictionary
0
DICTIONARY
5
1A
330
C
100
AcDbDictionary
0
DICTIONARY
5
17
100
AcDbDictionary
0
ENDSEC
0
EOF
